0
SECTION
2
HEADER
0
ENDSEC
0
SECTION
2
TABLES
0
TABLE
2
LTYPE
0
LTYPE
72
65
70
64
2
CONTINUOUS
3
______
73
0
40
0
0
ENDTAB
0
TABLE
2
LAYER
0
ENDTAB
0
ENDSEC
0
SECTION
2
ENTITIES
0
LINE
8
MainLayer
10
0
20
-76
11
0
21
0
0
LINE
8
MainLayer
10
0
20
0
11
28
21
0
0
LINE
8
MainLayer
10
28
20
0
11
28
21
-76
0
LINE
8
MainLayer
10
28
20
-76
11
0
21
-76
0
ARC
8
MainLayer
10
25.9999983
20
-28.9999983
40
0.2500017
50
270.0003818
51
359.9996182
0
ARC
8
MainLayer
10
25.9999983
20
-29.0000017
40
0.2500017
50
0.0003818
51
89.9996182
0
ARC
8
MainLayer
10
26.0000017
20
-29.0000017
40
0.2500017
50
90.0003818
51
179.9996182
0
ARC
8
MainLayer
10
26.0000017
20
-28.9999983
40
0.2500017
50
180.0003818
51
269.9996182
0
ARC
8
MainLayer
10
25.9999983
20
-46.9999983
40
0.2500017
50
270.0003818
51
359.9996182
0
ARC
8
MainLayer
10
25.9999983
20
-47.0000017
40
0.2500017
50
0.0003818
51
89.9996182
0
ARC
8
MainLayer
10
26.0000017
20
-47.0000017
40
0.2500017
50
90.0003818
51
179.9996182
0
ARC
8
MainLayer
10
26.0000017
20
-46.9999983
40
0.2500017
50
180.0003818
51
269.9996182
0
ARC
8
MainLayer
10
4.4999971
20
-1.499997
40
0.500003
50
270.0003289
51
359.9996597
0
ARC
8
MainLayer
10
4.4999971
20
-1.5000029
40
0.5000029
50
0.0003289
51
89.9996711
0
ARC
8
MainLayer
10
4.5000029
20
-1.500003
40
0.500003
50
90.0003289
51
179.9996597
0
ARC
8
MainLayer
10
4.5000029
20
-1.4999971
40
0.5000029
50
180.0003289
51
269.9996711
0
ARC
8
MainLayer
10
23.499997
20
-1.4999969
40
0.5000031
50
270.0003427
51
359.9996458
0
ARC
8
MainLayer
10
23.499997
20
-1.5000031
40
0.500003
50
0.0003542
51
89.9996573
0
ARC
8
MainLayer
10
23.500003
20
-1.5000031
40
0.5000031
50
90.0003427
51
179.9996458
0
ARC
8
MainLayer
10
23.500003
20
-1.4999969
40
0.500003
50
180.0003542
51
269.9996573
0
ARC
8
MainLayer
10
4.4999956
20
-4.3749956
40
0.7500044
50
270.0003373
51
359.9996627
0
ARC
8
MainLayer
10
4.4999956
20
-4.3750044
40
0.7500044
50
0.0003373
51
89.9996627
0
ARC
8
MainLayer
10
4.5000044
20
-4.3750044
40
0.7500044
50
90.0003373
51
179.9996627
0
ARC
8
MainLayer
10
4.5000044
20
-4.3749956
40
0.7500044
50
180.0003373
51
269.9996627
0
ARC
8
MainLayer
10
23.4999956
20
-4.3749956
40
0.7500044
50
270.0003373
51
359.9996627
0
ARC
8
MainLayer
10
23.4999956
20
-4.3750044
40
0.7500044
50
0.0003373
51
89.9996627
0
ARC
8
MainLayer
10
23.5000044
20
-4.3750044
40
0.7500044
50
90.0003373
51
179.9996627
0
ARC
8
MainLayer
10
23.5000044
20
-4.3749956
40
0.7500044
50
180.0003373
51
269.9996627
0
ENDSEC
0
EOF