0
SECTION
2
HEADER
0
ENDSEC
0
SECTION
2
TABLES
0
TABLE
2
LTYPE
0
LTYPE
72
65
70
64
2
CONTINUOUS
3
______
73
0
40
0
0
ENDTAB
0
TABLE
2
LAYER
0
ENDTAB
0
ENDSEC
0
SECTION
2
ENTITIES
0
LINE
8
MainLayer
10
49
20
0
11
467
21
0
0
LINE
8
MainLayer
10
516
20
-49
11
516
21
-466
0
LINE
8
MainLayer
10
467
20
-515
11
49
21
-515
0
LINE
8
MainLayer
10
0
20
-466
11
0
21
-49
0
ARC
8
MainLayer
10
49.0000037
20
-49.0000037
40
49.0000037
50
90.0000043
51
179.9999957
0
ARC
8
MainLayer
10
466.9999963
20
-49.0000037
40
49.0000037
50
0.0000043
51
89.9999957
0
ARC
8
MainLayer
10
466.9999963
20
-465.9999963
40
49.0000037
50
270.0000043
51
359.9999957
0
ARC
8
MainLayer
10
49.0000037
20
-465.9999963
40
49.0000037
50
180.0000043
51
269.9999957
0
ARC
8
MainLayer
10
60.0000061
20
-32.0000061
40
9.4999939
50
269.9999632
51
0.0000368
0
ARC
8
MainLayer
10
60.0000061
20
-31.9999939
40
9.4999939
50
359.9999632
51
90.0000368
0
ARC
8
MainLayer
10
59.9999939
20
-31.9999939
40
9.4999939
50
89.9999632
51
180.0000368
0
ARC
8
MainLayer
10
59.9999939
20
-32.0000061
40
9.4999939
50
179.9999632
51
270.0000368
0
ARC
8
MainLayer
10
456.0000061
20
-32.0000061
40
9.4999939
50
269.9999632
51
0.0000368
0
ARC
8
MainLayer
10
456.0000061
20
-31.9999939
40
9.4999939
50
359.9999632
51
90.0000368
0
ARC
8
MainLayer
10
455.9999939
20
-31.9999939
40
9.4999939
50
89.9999632
51
180.0000368
0
ARC
8
MainLayer
10
455.9999939
20
-32.0000061
40
9.4999939
50
179.9999632
51
270.0000368
0
ENDSEC
0
EOF